馬叔叔 x 坤哥 - 聽爸爸的話 Cover (Ma ShuShu x Ng Yip Kwan)
坤哥你怎麼又帥又會唱歌啦,犯規犯規!!!

訂閱馬叔叔youtube : http://goo.gl/3i05JE
馬叔叔官方連結 : http://free.shushuma.com/

COVER

聽爸爸的話1

聽爸爸的話2

(下載搖滾馬叔叔iOS請點我)  (下載Android) 

Posted by 馬叔叔 at 痞客邦 PIXNET Guestbook(8) 人氣()


留言列表 (8)

Post Comment
  • wind
  • 請問solo那段..?!
  • 小曹
  • 我想要跟馬叔叔約時間在桃園市南崁高中
    錄五月天瘋狂世界cover
  • Private Comment
  • 曹博翔
  • 瘋狂世界
  • 曹博翔
  • 我想跟馬叔叔約時間在桃園市力南崁高中
    的輔導室五月天瘋狂世界cover順便交我吉他也順便多帶一把烏克麗麗。
  • 濤=]
  • 自己聽的,不知對不對,solo:
    8--8-7 ------------------------------------------------------------------------------------------15
    -------8 10------10--8-6-5-8-656---131213------------13-17-181718-13-15-13-12-13--
    --9-----------------------------------5 -----------12-9-12---------------------------------------
    ----------------------------------------------------------------------------------------------------
    ----------------------------------------------------------------------------------------------------
    -----------------------------------------------------------------------------------------------------
    連住的是pull out+hammer
  • 曹博翔
  • 我想跟馬叔叔一起搖滾學吉他約2月24日桃園市南崁高中輔導室錄五月天瘋狂世界cover也順便教我吉他也順便多帶一把吉他。
  • Alex Chen
  • 從上面的solo再稍微修正,有錯再告知,謝謝
    8-8-7------------------------------------------------------------------------------------15
    -----8-10---10--8-6-5-8-656---------------------13-17-181718-13-15-13-12-13--
    -9-------------------------------5-7-5/9-12-9-12----------------------------------------
    ----------10--------------------------------------------------------------------------------
    ---------------------------------------------------------------------------------------------
    ---------------------------------------------------------------------------------------------